[ Новые сообщения · Участники · Правила форума · Поиск · RSS ]
  • Страница 1 из 1
  • 1
Модератор форума: Andrey_A, simup, ХарВик, chip642  
Форум » • AkelPad • » ТЕСТИРОВАНИЕ СКРИПТОВ для AkelPad » FormatTextSongs.vbs - Форматирование текстов песен (Форматирование)
FormatTextSongs.vbs - Форматирование текстов песен
Andrey_AДата: Среда, 29.08.2012, 02:12 | Сообщение № 1
Генералиссимус

На сайте с: 26.01.2012
Город: Сочи, Хоста
Сообщений: 7034
Награды: 132
Репутация: 118
Аверин Андрей
Форматирование текстов песен для программы SongBook

Доступно только для пользователей


 
TrinityRuДата: Среда, 29.08.2012, 11:17 | Сообщение № 2
Рядовой

На сайте с: 28.08.2012
Город: Екатеринбург
Сообщений: 5
Награды: 1
Репутация: 0
Andrey_A, благодарю. Изумительно, Вы гений. Все аккорды встали на своё место, косяков нет.
В принципе вроде работает как надо. Но есть небольшие неточности. Во первых иногда над табами тоже пишутся аккорды
Code

          Em      Em
|---0--0----0--0---8----8--7--5--3----5--7--2--2--2--2-----|
|------0-------0----0-------------0----------0--0--0--0----|
|------0-------0-----0-------------0----------0--0--0----0-|
|------2-------2---7----7--5--4--2----4--5--0--------------|
|-2----2--2----2-------------------------------------------|
|------0-------0-------------------------------------------|


И Ваш скрипт их вставляет в табы
Code
|---0--[Em]0----0--[Em]0---8----8--7--5--3----5--7--2--2--2--2-----|
|------0-------0----0-------------0----------0--0--0--0----|
|------0-------0-----0-------------0----------0--0--0----0-|
|------2-------2---7----7--5--4--2----4--5--0--------------|
|-2----2--2----2-------------------------------------------|
|------0-------0-------------------------------------------|


А должно быть так
Code
{sot}
          Em      Em
|---0--0----0--0---8----8--7--5--3----5--7--2--2--2--2-----|
|------0-------0----0-------------0----------0--0--0--0----|
|------0-------0-----0-------------0----------0--0--0----0-|
|------2-------2---7----7--5--4--2----4--5--0--------------|
|-2----2--2----2-------------------------------------------|
|------0-------0-------------------------------------------|
{eot}


И ещё припев почему-то не обрамляется тегами
Code
{soc} {eoc}


По первой строчке.
Лучше выглядит конечно так
Code
{st:Трофим}
{t:Московская песня}

т.е без тире. Если можно то уберите тире скриптом.

http://sderni.ru/142489 песня с табами и аккордами над ними.


Сообщение отредактировал TrinityRu - Среда, 29.08.2012, 11:18
 
Andrey_AДата: Среда, 29.08.2012, 15:35 | Сообщение № 3
Генералиссимус

На сайте с: 26.01.2012
Город: Сочи, Хоста
Сообщений: 7034
Награды: 132
Репутация: 118
Аверин Андрей
На днях доделаю, если обнаружите ещё ошибки - высылайте файлы на которых это происходит , чую ещё не раз нужно будет переправлять...

Quote (TrinityRu)
И ещё припев почему-то не обрамляется тегами


Потому что он стоит не там, а в строке с текстом песни... попробую извратиться

Сделал - вроде всё что надо - версия 1.1


 
TrinityRuДата: Четверг, 30.08.2012, 12:51 | Сообщение № 4
Рядовой

На сайте с: 28.08.2012
Город: Екатеринбург
Сообщений: 5
Награды: 1
Репутация: 0
Andrey_A, о вообще шикарно!
 
Форум » • AkelPad • » ТЕСТИРОВАНИЕ СКРИПТОВ для AkelPad » FormatTextSongs.vbs - Форматирование текстов песен (Форматирование)
  • Страница 1 из 1
  • 1
Поиск:

Сообщите о находке всему миру:
Рейтинг@Mail.ru Тиц и pr сайта Яндекс.Метрика

Интеллектуальные права и отказ от ответственности